  0
SECTION
  2
HEADER
  9
$ACADVER
  1
AC1015
  9
$ACADMAINTVER
 70
     6
  9
$DWGCODEPAGE
  3
ANSI_1254
  9
$INSBASE
 10
0.0
 20
0.0
 30
0.0
  9
$EXTMIN
 10
0.0
 20
0.0
 30
0.0
  9
$EXTMAX
 10
279.4
 20
215.9
 30
0.0
  9
$LIMMIN
 10
0.0
 20
0.0
  9
$LIMMAX
 10
279.4
 20
215.9
  9
$ORTHOMODE
 70
     0
  9
$REGENMODE
 70
     1
  9
$FILLMODE
 70
     1
  9
$QTEXTMODE
 70
     0
  9
$MIRRTEXT
 70
     1
  9
$LTSCALE
 40
1.0
  9
$ATTMODE
 70
     1
  9
$TEXTSIZE
 40
3.5
  9
$TRACEWID
 40
1.0
  9
$TEXTSTYLE
  7
Standard
  9
$CLAYER
  8
0
  9
$CELTYPE
  6
ByLayer
  9
$CECOLOR
 62
   256
  9
$CELTSCALE
 40
1.0
  9
$DISPSILH
 70
     0
  9
$DIMSCALE
 40
1.0
  9
$DIMASZ
 40
3.5
  9
$DIMEXO
 40
1.0
  9
$DIMDLI
 40
3.75
  9
$DIMRND
 40
0.0
  9
$DIMDLE
 40
0.0
  9
$DIMEXE
 40
1.0
  9
$DIMTP
 40
0.0
  9
$DIMTM
 40
0.0
  9
$DIMTXT
 40
3.5
  9
$DIMCEN
 40
2.5
  9
$DIMTSZ
 40
0.0
  9
$DIMTOL
 70
     0
  9
$DIMLIM
 70
     0
  9
$DIMTIH
 70
     1
  9
$DIMTOH
 70
     1
  9
$DIMSE1
 70
     0
  9
$DIMSE2
 70
     0
  9
$DIMTAD
 70
     1
  9
$DIMZIN
 70
     0
  9
$DIMBLK
  1

  9
$DIMASO
 70
     1
  9
$DIMSHO
 70
     1
  9
$DIMPOST
  1

  9
$DIMAPOST
  1

  9
$DIMALT
 70
     0
  9
$DIMALTD
 70
     3
  9
$DIMALTF
 40
0.0393700787
  9
$DIMLFAC
 40
1.0
  9
$DIMTOFL
 70
     1
  9
$DIMTVP
 40
0.0
  9
$DIMTIX
 70
     0
  9
$DIMSOXD
 70
     0
  9
$DIMSAH
 70
     0
  9
$DIMBLK1
  1

  9
$DIMBLK2
  1

  9
$DIMSTYLE
  2
ISO-25
  9
$DIMCLRD
 70
     0
  9
$DIMCLRE
 70
     0
  9
$DIMCLRT
 70
     0
  9
$DIMTFAC
 40
1.0
  9
$DIMGAP
 40
1.524
  9
$DIMJUST
 70
     0
  9
$DIMSD1
 70
     0
  9
$DIMSD2
 70
     0
  9
$DIMTOLJ
 70
     0
  9
$DIMTZIN
 70
     0
  9
$DIMALTZ
 70
     0
  9
$DIMALTTZ
 70
     0
  9
$DIMUPT
 70
     0
  9
$DIMDEC
 70
     2
  9
$DIMTDEC
 70
     2
  9
$DIMALTU
 70
     2
  9
$DIMALTTD
 70
     3
  9
$DIMTXSTY
  7
Standard
  9
$DIMAUNIT
 70
     0
  9
$DIMADEC
 70
     2
  9
$DIMALTRND
 40
0.0
  9
$DIMAZIN
 70
     0
  9
$DIMDSEP
 70
    44
  9
$DIMATFIT
 70
     3
  9
$DIMFRAC
 70
     0
  9
$DIMLDRBLK
  1

  9
$DIMLUNIT
 70
     2
  9
$DIMLWD
 70
    -2
  9
$DIMLWE
 70
    -2
  9
$DIMTMOVE
 70
     0
  9
$LUNITS
 70
     2
  9
$LUPREC
 70
     2
  9
$SKETCHINC
 40
1.0
  9
$FILLETRAD
 40
10.0
  9
$AUNITS
 70
     0
  9
$AUPREC
 70
     2
  9
$MENU
  1
.
  9
$ELEVATION
 40
0.0
  9
$PELEVATION
 40
0.0
  9
$THICKNESS
 40
0.0
  9
$LIMCHECK
 70
     0
  9
$CHAMFERA
 40
0.0
  9
$CHAMFERB
 40
0.0
  9
$CHAMFERC
 40
0.0
  9
$CHAMFERD
 40
0.0
  9
$SKPOLY
 70
     0
  9
$TDCREATE
 40
2459898.405667523
  9
$TDUCREATE
 40
2459898.280667523
  9
$TDUPDATE
 40
2459898.405667708
  9
$TDUUPDATE
 40
2459898.280667708
  9
$TDINDWG
 40
0.0000000116
  9
$TDUSRTIMER
 40
0.0000000116
  9
$USRTIMER
 70
     1
  9
$ANGBASE
 50
0.0
  9
$ANGDIR
 70
     0
  9
$PDMODE
 70
     0
  9
$PDSIZE
 40
-1.0
  9
$PLINEWID
 40
0.0
  9
$SPLFRAME
 70
     0
  9
$SPLINETYPE
 70
     6
  9
$SPLINESEGS
 70
     8
  9
$HANDSEED
  5
D4
  9
$SURFTAB1
 70
     6
  9
$SURFTAB2
 70
     6
  9
$SURFTYPE
 70
     6
  9
$SURFU
 70
     6
  9
$SURFV
 70
     6
  9
$UCSBASE
  2

  9
$UCSNAME
  2

  9
$UCSORG
 10
0.0
 20
0.0
 30
0.0
  9
$UCSXDIR
 10
1.0
 20
0.0
 30
0.0
  9
$UCSYDIR
 10
0.0
 20
1.0
 30
0.0
  9
$UCSORTHOREF
  2

  9
$UCSORTHOVIEW
 70
     0
  9
$UCSORGTOP
 10
0.0
 20
0.0
 30
0.0
  9
$UCSORGBOTTOM
 10
0.0
 20
0.0
 30
0.0
  9
$UCSORGLEFT
 10
0.0
 20
0.0
 30
0.0
  9
$UCSORGRIGHT
 10
0.0
 20
0.0
 30
0.0
  9
$UCSORGFRONT
 10
0.0
 20
0.0
 30
0.0
  9
$UCSORGBACK
 10
0.0
 20
0.0
 30
0.0
  9
$PUCSBASE
  2

  9
$PUCSNAME
  2

  9
$PUCSORG
 10
0.0
 20
0.0
 30
0.0
  9
$PUCSXDIR
 10
1.0
 20
0.0
 30
0.0
  9
$PUCSYDIR
 10
0.0
 20
1.0
 30
0.0
  9
$PUCSORTHOREF
  2

  9
$PUCSORTHOVIEW
 70
     0
  9
$PUCSORGTOP
 10
0.0
 20
0.0
 30
0.0
  9
$PUCSORGBOTTOM
 10
0.0
 20
0.0
 30
0.0
  9
$PUCSORGLEFT
 10
0.0
 20
0.0
 30
0.0
  9
$PUCSORGRIGHT
 10
0.0
 20
0.0
 30
0.0
  9
$PUCSORGFRONT
 10
0.0
 20
0.0
 30
0.0
  9
$PUCSORGBACK
 10
0.0
 20
0.0
 30
0.0
  9
$USERI1
 70
     0
  9
$USERI2
 70
     0
  9
$USERI3
 70
     0
  9
$USERI4
 70
     0
  9
$USERI5
 70
     0
  9
$USERR1
 40
0.0
  9
$USERR2
 40
0.0
  9
$USERR3
 40
0.0
  9
$USERR4
 40
0.0
  9
$USERR5
 40
0.0
  9
$WORLDVIEW
 70
     1
  9
$SHADEDGE
 70
     3
  9
$SHADEDIF
 70
    70
  9
$TILEMODE
 70
     1
  9
$MAXACTVP
 70
    64
  9
$PINSBASE
 10
0.0
 20
0.0
 30
0.0
  9
$PLIMCHECK
 70
     0
  9
$PEXTMIN
 10
1.0000000000E+20
 20
1.0000000000E+20
 30
1.0000000000E+20
  9
$PEXTMAX
 10
-1.0000000000E+20
 20
-1.0000000000E+20
 30
-1.0000000000E+20
  9
$PLIMMIN
 10
0.0
 20
0.0
  9
$PLIMMAX
 10
420.0
 20
297.0
  9
$UNITMODE
 70
     0
  9
$VISRETAIN
 70
     1
  9
$PLINEGEN
 70
     0
  9
$PSLTSCALE
 70
     1
  9
$TREEDEPTH
 70
  3020
  9
$CMLSTYLE
  2
Standard
  9
$CMLJUST
 70
     0
  9
$CMLSCALE
 40
20.0
  9
$PROXYGRAPHICS
 70
     1
  9
$MEASUREMENT
 70
     1
  9
$CELWEIGHT
370
    -1
  9
$ENDCAPS
280
     0
  9
$JOINSTYLE
280
     0
  9
$LWDISPLAY
290
     1
  9
$INSUNITS
 70
     4
  9
$HYPERLINKBASE
  1

  9
$STYLESHEET
  1

  9
$XEDIT
290
     1
  9
$CEPSNTYPE
380
     0
  9
$PSTYLEMODE
290
     1
  9
$FINGERPRINTGUID
  2
{a0da915a-4638-4757-9561-418caef5e6ab}
  9
$VERSIONGUID
  2
{FAEB1C32-E019-11D5-929B-00C0DF256EC4}
  9
$EXTNAMES
290
     1
  9
$PSVPSCALE
 40
0.0
  9
$OLESTARTUP
290
     0
  0
ENDSEC
  0
SECTION
  2
CLASSES
  0
CLASS
  1
ACDBDICTIONARYWDFLT
  2
AcDbDictionaryWithDefault
  3
ObjectDBX Classes
 90
        0
280
     0
281
     0
  0
CLASS
  1
VISUALSTYLE
  2
AcDbVisualStyle
  3
ObjectDBX Classes
 90
     4095
280
     0
281
     0
  0
CLASS
  1
MATERIAL
  2
AcDbMaterial
  3
ObjectDBX Classes
 90
     1153
280
     0
281
     0
  0
CLASS
  1
SCALE
  2
AcDbScale
  3
ObjectDBX Classes
 90
     1153
280
     0
281
     0
  0
CLASS
  1
TABLESTYLE
  2
AcDbTableStyle
  3
ObjectDBX Classes
 90
     4095
280
     0
281
     0
  0
CLASS
  1
MLEADERSTYLE
  2
AcDbMLeaderStyle
  3
ACDB_MLEADERSTYLE_CLASS
 90
     4095
280
     0
281
     0
  0
CLASS
  1
SUN
  2
AcDbSun
  3
SCENEOE
 90
     1153
280
     0
281
     0
  0
CLASS
  1
ACDBPLACEHOLDER
  2
AcDbPlaceHolder
  3
ObjectDBX Classes
 90
        0
280
     0
281
     0
  0
CLASS
  1
LAYOUT
  2
AcDbLayout
  3
ObjectDBX Classes
 90
        0
280
     0
281
     0
  0
ENDSEC
  0
SECTION
  2
TABLES
  0
TABLE
  2
VPORT
  5
8
330
0
100
AcDbSymbolTable
 70
     1
  0
VPORT
  5
29
330
8
100
AcDbSymbolTableRecord
100
AcDbViewportTableRecord
  2
*Active
 70
     0
 10
0.0
 20
0.0
 11
1.0
 21
1.0
 12
139.7
 22
107.95
 13
0.0
 23
0.0
 14
10.0
 24
10.0
 15
10.0
 25
10.0
 16
0.0
 26
0.0
 36
1.0
 17
0.0
 27
0.0
 37
0.0
 40
215.9
 41
1.2941176471
 42
50.0
 43
0.0
 44
0.0
 50
0.0
 51
0.0
 71
     0
 72
  2000
 73
     1
 74
     3
 75
     0
 76
     0
 77
     0
 78
     0
281
     0
 65
     1
110
0.0
120
0.0
130
0.0
111
1.0
121
0.0
131
0.0
112
0.0
122
1.0
132
0.0
 79
     0
146
0.0
  0
ENDTAB
  0
TABLE
  2
LTYPE
  5
5
330
0
100
AcDbSymbolTable
 70
     6
  0
LTYPE
  5
14
330
5
100
AcDbSymbolTableRecord
100
AcDbLinetypeTableRecord
  2
ByBlock
 70
     0
  3

 72
    65
 73
     0
 40
0.0
  0
LTYPE
  5
15
330
5
100
AcDbSymbolTableRecord
100
AcDbLinetypeTableRecord
  2
ByLayer
 70
     0
  3

 72
    65
 73
     0
 40
0.0
  0
LTYPE
  5
16
330
5
100
AcDbSymbolTableRecord
100
AcDbLinetypeTableRecord
  2
Continuous
 70
     0
  3
Solid line
 72
    65
 73
     0
 40
0.0
  0
LTYPE
  5
6E
330
5
100
AcDbSymbolTableRecord
100
AcDbLinetypeTableRecord
  2
HIDDEN
 70
     0
  3
Hidden __ __ __ __ __ __ __ __ __ __ __ __ __ __
 72
    65
 73
     2
 40
1.905
 49
1.27
 74
     0
 49
-0.635
 74
     0
  0
LTYPE
  5
6F
330
5
100
AcDbSymbolTableRecord
100
AcDbLinetypeTableRecord
  2
PHANTOM
 70
     0
  3
Phantom ______  __  __  ______  __  __  ______
 72
    65
 73
     6
 40
12.7
 49
6.35
 74
     0
 49
-1.27
 74
     0
 49
1.27
 74
     0
 49
-1.27
 74
     0
 49
1.27
 74
     0
 49
-1.27
 74
     0
  0
LTYPE
  5
70
330
5
100
AcDbSymbolTableRecord
100
AcDbLinetypeTableRecord
  2
CENTER
 70
     0
  3
Center ____ _ ____ _ ____ _ ____ _ ____ _ ____
 72
    65
 73
     4
 40
10.16
 49
6.35
 74
     0
 49
-1.27
 74
     0
 49
1.27
 74
     0
 49
-1.27
 74
     0
  0
LTYPE
  5
71
330
5
100
AcDbSymbolTableRecord
100
AcDbLinetypeTableRecord
  2
CENTERX2
 70
     0
  3
Center (2x) ________  __  ________  __  _____
 72
    65
 73
     4
 40
20.32
 49
12.7
 74
     0
 49
-2.54
 74
     0
 49
2.54
 74
     0
 49
-2.54
 74
     0
  0
LTYPE
  5
72
330
5
100
AcDbSymbolTableRecord
100
AcDbLinetypeTableRecord
  2
DOT2
 70
     0
  3
Dot (.5x) ........................................
 72
    65
 73
     2
 40
0.635
 49
0.0
 74
     0
 49
-0.635
 74
     0
  0
ENDTAB
  0
TABLE
  2
LAYER
  5
2
330
0
100
AcDbSymbolTable
 70
    17
  0
LAYER
  5
10
330
2
100
AcDbSymbolTableRecord
100
AcDbLayerTableRecord
  2
0
 70
     0
 62
     7
  6
Continuous
370
    -3
390
F
  0
LAYER
  5
73
330
2
100
AcDbSymbolTableRecord
100
AcDbLayerTableRecord
  2
FORMAT
 70
     0
 62
     7
  6
Continuous
370
    -3
390
F
  0
LAYER
  5
74
330
2
100
AcDbSymbolTableRecord
100
AcDbLayerTableRecord
  2
YARDIMCI_GEOMETRI
 70
     0
 62
    -6
  6
Continuous
290
     0
370
    -3
390
F
  0
LAYER
  5
75
330
2
100
AcDbSymbolTableRecord
100
AcDbLayerTableRecord
  2
SAYFA_CERCEVESI
 70
     0
 62
     7
  6
Continuous
370
    25
390
F
  0
LAYER
  5
76
330
2
100
AcDbSymbolTableRecord
100
AcDbLayerTableRecord
  2
ANTET
 70
     0
 62
     7
  6
Continuous
370
    -3
390
F
  0
LAYER
  5
77
330
2
100
AcDbSymbolTableRecord
100
AcDbLayerTableRecord
  2
OLCU
 70
     0
 62
   150
  6
Continuous
370
    -3
390
F
  0
LAYER
  5
78
330
2
100
AcDbSymbolTableRecord
100
AcDbLayerTableRecord
  2
METIN
 70
     0
 62
    96
  6
Continuous
370
    -3
390
F
  0
LAYER
  5
79
330
2
100
AcDbSymbolTableRecord
100
AcDbLayerTableRecord
  2
BALON
 70
     0
 62
     5
  6
Continuous
370
    -3
390
F
  0
LAYER
  5
7A
330
2
100
AcDbSymbolTableRecord
100
AcDbLayerTableRecord
  2
VURGU
 70
     0
 62
     7
  6
Continuous
370
    -3
390
F
  0
LAYER
  5
7B
330
2
100
AcDbSymbolTableRecord
100
AcDbLayerTableRecord
  2
SILIK
 70
     0
 62
     7
  6
Continuous
370
    -3
390
F
  0
LAYER
  5
7C
330
2
100
AcDbSymbolTableRecord
100
AcDbLayerTableRecord
  2
MODEL
 70
     0
 62
     7
  6
Continuous
370
    -3
390
F
  0
LAYER
  5
7D
330
2
100
AcDbSymbolTableRecord
100
AcDbLayerTableRecord
  2
DETAYLANDıRMA
 70
     0
 62
   190
  6
Continuous
370
    -3
390
F
  0
LAYER
  5
7E
330
2
100
AcDbSymbolTableRecord
100
AcDbLayerTableRecord
  2
TOLERANS
 70
     0
 62
   230
  6
Continuous
370
    -3
390
F
  0
LAYER
  5
7F
330
2
100
AcDbSymbolTableRecord
100
AcDbLayerTableRecord
  2
MERKEZ_CIZGILERI
 70
     0
 62
    30
  6
Continuous
370
    -3
390
F
  0
LAYER
  5
80
330
2
100
AcDbSymbolTableRecord
100
AcDbLayerTableRecord
  2
KESIT-DETAY_CIZGILERI
 70
     0
 62
     7
  6
Continuous
370
    -3
390
F
  0
LAYER
  5
81
330
2
100
AcDbSymbolTableRecord
100
AcDbLayerTableRecord
  2
\U+041E\U+0421\U+0415\U+0412\U+042B\U+0415
 70
     0
 62
     7
  6
Continuous
370
    -3
390
F
  0
LAYER
  5
82
330
2
100
AcDbSymbolTableRecord
100
AcDbLayerTableRecord
  2
\U+0412\U+041E\U+0414\U+042F\U+041D\U+042B\U+0415_\U+0417\U+041D\U+0410\U+041A\U+0418
 70
     0
 62
    11
  6
Continuous
370
    -3
390
F
  0
ENDTAB
  0
TABLE
  2
STYLE
  5
3
330
0
100
AcDbSymbolTable
 70
     1
  0
STYLE
  5
11
330
3
100
AcDbSymbolTableRecord
100
AcDbTextStyleTableRecord
  2
Standard
 70
     0
 40
0.0
 41
1.0
 50
0.0
 71
     0
 42
3.5
  3
txt
  4

  0
ENDTAB
  0
TABLE
  2
VIEW
  5
6
330
0
100
AcDbSymbolTable
 70
     0
  0
ENDTAB
  0
TABLE
  2
UCS
  5
7
330
0
100
AcDbSymbolTable
 70
     0
  0
ENDTAB
  0
TABLE
  2
APPID
  5
9
330
0
100
AcDbSymbolTable
 70
     1
  0
APPID
  5
12
330
9
100
AcDbSymbolTableRecord
100
AcDbRegAppTableRecord
  2
ACAD
 70
     0
  0
ENDTAB
  0
TABLE
  2
DIMSTYLE
  5
A
330
0
100
AcDbSymbolTable
 70
     1
100
AcDbDimStyleTable
  0
DIMSTYLE
105
27
330
A
100
AcDbSymbolTableRecord
100
AcDbDimStyleTableRecord
  2
ISO-25
 70
     0
 41
2.5
 42
0.625
 43
3.75
 44
1.25
 73
     0
 74
     0
 77
     1
 78
     8
140
2.5
141
2.5
143
0.0393700787
147
0.625
171
     3
172
     1
178
     0
271
     2
272
     2
274
     3
278
    44
283
     0
284
     8
340
11
  0
ENDTAB
  0
TABLE
  2
BLOCK_RECORD
  5
1
330
0
100
AcDbSymbolTable
 70
     1
  0
BLOCK_RECORD
  5
1F
330
1
100
AcDbSymbolTableRecord
100
AcDbBlockTableRecord
  2
*Model_Space
340
22
  0
BLOCK_RECORD
  5
1B
330
1
100
AcDbSymbolTableRecord
100
AcDbBlockTableRecord
  2
*Paper_Space
340
1E
  0
BLOCK_RECORD
  5
23
330
1
100
AcDbSymbolTableRecord
100
AcDbBlockTableRecord
  2
*Paper_Space0
340
26
  0
ENDTAB
  0
ENDSEC
  0
SECTION
  2
BLOCKS
  0
BLOCK
  5
20
330
1F
100
AcDbEntity
  8
0
100
AcDbBlockBegin
  2
*Model_Space
 70
     0
 10
0.0
 20
0.0
 30
0.0
  3
*Model_Space
  1

  0
ENDBLK
  5
21
330
1F
100
AcDbEntity
  8
0
100
AcDbBlockEnd
  0
BLOCK
  5
1C
330
1B
100
AcDbEntity
 67
     1
  8
0
100
AcDbBlockBegin
  2
*Paper_Space
 70
     0
 10
0.0
 20
0.0
 30
0.0
  3
*Paper_Space
  1

  0
ENDBLK
  5
1D
330
1B
100
AcDbEntity
 67
     1
  8
0
100
AcDbBlockEnd
  0
BLOCK
  5
24
330
23
100
AcDbEntity
  8
0
100
AcDbBlockBegin
  2
*Paper_Space0
 70
     0
 10
0.0
 20
0.0
 30
0.0
  3
*Paper_Space0
  1

  0
ENDBLK
  5
25
330
23
100
AcDbEntity
  8
0
100
AcDbBlockEnd
  0
ENDSEC
  0
SECTION
  2
ENTITIES
  0
CIRCLE
  5
83
330
1F
100
AcDbEntity
  8
0
  6
Continuous
 62
     7
370
    25
100
AcDbCircle
 10
143.5793952306
 20
116.5420715963
 30
0.0
 40
177.5
  0
CIRCLE
  5
84
330
1F
100
AcDbEntity
  8
0
  6
Continuous
 62
     7
370
    25
100
AcDbCircle
 10
143.5793952306
 20
116.5420715963
 30
0.0
 40
156.4
  0
CIRCLE
  5
85
330
1F
100
AcDbEntity
  8
0
  6
Continuous
 62
     7
370
    25
100
AcDbCircle
 10
143.5793952306
 20
116.5420715963
 30
0.0
 40
180.0491715830649
  0
CIRCLE
  5
86
330
1F
100
AcDbEntity
  8
0
  6
Continuous
 62
     7
370
    25
100
AcDbCircle
 10
143.5793952306
 20
116.5420715963
 30
0.0
 40
188.0
  0
CIRCLE
  5
87
330
1F
100
AcDbEntity
  8
0
  6
Continuous
 62
     7
370
    25
100
AcDbCircle
 10
143.5793952306
 20
116.5420715963
 30
0.0
 40
217.5
  0
LINE
  5
88
330
1F
100
AcDbEntity
  8
0
  6
Continuous
 62
     7
370
    25
100
AcDbLine
 10
361.0793952306
 20
446.6803981566
 30
0.0
 11
361.0793952306
 21
476.6803981566
 31
0.0
  0
LINE
  5
89
330
1F
100
AcDbEntity
  8
0
  6
Continuous
 62
     7
370
    25
100
AcDbLine
 10
-73.9206047694
 20
476.6803981566
 30
0.0
 11
-73.9206047694
 21
446.6803981566
 31
0.0
  0
ARC
  5
8A
330
1F
100
AcDbEntity
  8
0
  6
Continuous
 62
     7
370
    25
100
AcDbCircle
 10
331.5793952306
 20
484.6803981566
 30
0.0
 40
8.000000000000066
100
AcDbArc
 50
186.3558323105
 51
270.0
  0
ARC
  5
8B
330
1F
100
AcDbEntity
  8
0
  6
Continuous
 62
     7
370
    25
100
AcDbCircle
 10
-44.4206047694
 20
484.6803981566
 30
0.0
 40
8.0
100
AcDbArc
 50
270.0
 51
353.6441676895
  0
LINE
  5
8C
330
1F
100
AcDbEntity
  8
0
  6
Continuous
 62
     7
370
    25
100
AcDbLine
 10
323.6285668137
 20
483.794775503
 30
0.0
 11
321.0793952306
 21
506.6803981566
 31
0.0
  0
LINE
  5
8D
330
1F
100
AcDbEntity
  8
0
  6
Continuous
 62
     7
370
    25
100
AcDbLine
 10
-33.9206047694
 20
506.6803981566
 30
0.0
 11
-36.4697763525
 21
483.794775503
 31
0.0
  0
LINE
  5
8E
330
1F
100
AcDbEntity
  8
0
  6
Continuous
 62
     7
370
    25
100
AcDbLine
 10
321.0793952306
 20
506.6803981566
 30
0.0
 11
321.0793952306
 21
566.6803981566
 31
0.0
  0
LINE
  5
8F
330
1F
100
AcDbEntity
  8
0
  6
Continuous
 62
     7
370
    25
100
AcDbLine
 10
-33.9206047694
 20
566.6803981566
 30
0.0
 11
-33.9206047694
 21
506.6803981566
 31
0.0
  0
LINE
  5
90
330
1F
100
AcDbEntity
  8
0
  6
Continuous
 62
     7
370
    25
100
AcDbLine
 10
361.0793952306
 20
476.6803981566
 30
0.0
 11
-73.9206047694
 21
476.6803981566
 31
0.0
  0
LINE
  5
91
330
1F
100
AcDbEntity
  8
0
  6
Continuous
 62
     7
370
    25
100
AcDbLine
 10
361.0793952306
 20
446.6803981566
 30
0.0
 11
-73.9206047694
 21
446.6803981566
 31
0.0
  0
LINE
  5
92
330
1F
100
AcDbEntity
  8
0
  6
Continuous
 62
     7
370
    25
100
AcDbLine
 10
321.0793952306
 20
506.6803981566
 30
0.0
 11
-33.9206047694
 21
506.6803981566
 31
0.0
  0
LINE
  5
93
330
1F
100
AcDbEntity
  8
0
  6
Continuous
 62
     7
370
    25
100
AcDbLine
 10
321.0793952306
 20
566.6803981566
 30
0.0
 11
-33.9206047694
 21
566.6803981566
 31
0.0
  0
LINE
  5
94
330
1F
100
AcDbEntity
  8
0
  6
Continuous
 62
     1
370
    25
100
AcDbLine
 10
323.6285668137
 20
483.794775503
 30
0.0
 11
-36.4697763525
 21
483.794775503
 31
0.0
  0
LINE
  5
95
330
1F
100
AcDbEntity
  8
0
  6
Continuous
 62
     7
370
    25
100
AcDbLine
 10
-232.3524215818
 20
334.0420715963
 30
0.0
 11
-262.3524215818
 21
334.0420715963
 31
0.0
  0
LINE
  5
96
330
1F
100
AcDbEntity
  8
0
  6
Continuous
 62
     7
370
    25
100
AcDbLine
 10
-262.3524215818
 20
-100.9579284037
 30
0.0
 11
-232.3524215818
 21
-100.9579284037
 31
0.0
  0
ARC
  5
97
330
1F
100
AcDbEntity
  8
0
  6
Continuous
 62
     7
370
    25
100
AcDbCircle
 10
-270.3524215818
 20
304.5420715963
 30
0.0
 40
8.000000000000009
100
AcDbArc
 50
276.3558323105
 51
0.0
  0
ARC
  5
98
330
1F
100
AcDbEntity
  8
0
  6
Continuous
 62
     7
370
    25
100
AcDbCircle
 10
-270.3524215818
 20
-71.4579284037
 30
0.0
 40
8.0
100
AcDbArc
 50
0.0
 51
83.6441676895
  0
LINE
  5
99
330
1F
100
AcDbEntity
  8
0
  6
Continuous
 62
     7
370
    25
100
AcDbLine
 10
-269.4667989283
 20
296.5912431793
 30
0.0
 11
-292.3524215818
 21
294.0420715963
 31
0.0
  0
LINE
  5
9A
330
1F
100
AcDbEntity
  8
0
  6
Continuous
 62
     7
370
    25
100
AcDbLine
 10
-292.3524215818
 20
-60.9579284037
 30
0.0
 11
-269.4667989283
 21
-63.5070999868
 31
0.0
  0
LINE
  5
9B
330
1F
100
AcDbEntity
  8
0
  6
Continuous
 62
     7
370
    25
100
AcDbLine
 10
-292.3524215818
 20
294.0420715963
 30
0.0
 11
-352.3524215818
 21
294.0420715963
 31
0.0
  0
LINE
  5
9C
330
1F
100
AcDbEntity
  8
0
  6
Continuous
 62
     7
370
    25
100
AcDbLine
 10
-352.3524215818
 20
-60.9579284037
 30
0.0
 11
-292.3524215818
 21
-60.9579284037
 31
0.0
  0
LINE
  5
9D
330
1F
100
AcDbEntity
  8
0
  6
Continuous
 62
     7
370
    25
100
AcDbLine
 10
-262.3524215818
 20
334.0420715963
 30
0.0
 11
-262.3524215818
 21
-100.9579284037
 31
0.0
  0
LINE
  5
9E
330
1F
100
AcDbEntity
  8
0
  6
Continuous
 62
     7
370
    25
100
AcDbLine
 10
-232.3524215818
 20
334.0420715963
 30
0.0
 11
-232.3524215818
 21
-100.9579284037
 31
0.0
  0
LINE
  5
9F
330
1F
100
AcDbEntity
  8
0
  6
Continuous
 62
     7
370
    25
100
AcDbLine
 10
-292.3524215818
 20
294.0420715963
 30
0.0
 11
-292.3524215818
 21
-60.9579284037
 31
0.0
  0
LINE
  5
A0
330
1F
100
AcDbEntity
  8
0
  6
Continuous
 62
     7
370
    25
100
AcDbLine
 10
-352.3524215818
 20
294.0420715963
 30
0.0
 11
-352.3524215818
 21
-60.9579284037
 31
0.0
  0
LINE
  5
A1
330
1F
100
AcDbEntity
  8
0
  6
Continuous
 62
     1
370
    25
100
AcDbLine
 10
-269.4667989283
 20
296.5912431793
 30
0.0
 11
-269.4667989283
 21
-63.5070999868
 31
0.0
  0
LINE
  5
A2
330
1F
100
AcDbEntity
  8
0
  6
Continuous
 62
     7
370
    25
100
AcDbLine
 10
-73.9206047694
 20
-258.3278400071
 30
0.0
 11
-73.9206047694
 21
-288.3278400071
 31
0.0
  0
LINE
  5
A3
330
1F
100
AcDbEntity
  8
0
  6
Continuous
 62
     7
370
    25
100
AcDbLine
 10
361.0793952306
 20
-288.3278400071
 30
0.0
 11
361.0793952306
 21
-258.3278400071
 31
0.0
  0
ARC
  5
A4
330
1F
100
AcDbEntity
  8
0
  6
Continuous
 62
     7
370
    25
100
AcDbCircle
 10
-44.4206047694
 20
-296.3278400071
 30
0.0
 40
8.000000000000002
100
AcDbArc
 50
6.3558323105
 51
90.0
  0
ARC
  5
A5
330
1F
100
AcDbEntity
  8
0
  6
Continuous
 62
     7
370
    25
100
AcDbCircle
 10
331.5793952306
 20
-296.3278400071
 30
0.0
 40
8.000000000000073
100
AcDbArc
 50
90.0
 51
173.6441676895
  0
LINE
  5
A6
330
1F
100
AcDbEntity
  8
0
  6
Continuous
 62
     7
370
    25
100
AcDbLine
 10
-36.4697763525
 20
-295.4422173536
 30
0.0
 11
-33.9206047694
 21
-318.3278400071
 31
0.0
  0
LINE
  5
A7
330
1F
100
AcDbEntity
  8
0
  6
Continuous
 62
     7
370
    25
100
AcDbLine
 10
321.0793952306
 20
-318.3278400071
 30
0.0
 11
323.6285668137
 21
-295.4422173536
 31
0.0
  0
LINE
  5
A8
330
1F
100
AcDbEntity
  8
0
  6
Continuous
 62
     7
370
    25
100
AcDbLine
 10
-33.9206047694
 20
-318.3278400071
 30
0.0
 11
-33.9206047694
 21
-378.3278400071
 31
0.0
  0
LINE
  5
A9
330
1F
100
AcDbEntity
  8
0
  6
Continuous
 62
     7
370
    25
100
AcDbLine
 10
321.0793952306
 20
-378.3278400071
 30
0.0
 11
321.0793952306
 21
-318.3278400071
 31
0.0
  0
LINE
  5
AA
330
1F
100
AcDbEntity
  8
0
  6
Continuous
 62
     7
370
    25
100
AcDbLine
 10
-73.9206047694
 20
-288.3278400071
 30
0.0
 11
361.0793952306
 21
-288.3278400071
 31
0.0
  0
LINE
  5
AB
330
1F
100
AcDbEntity
  8
0
  6
Continuous
 62
     7
370
    25
100
AcDbLine
 10
-73.9206047694
 20
-258.3278400071
 30
0.0
 11
361.0793952306
 21
-258.3278400071
 31
0.0
  0
LINE
  5
AC
330
1F
100
AcDbEntity
  8
0
  6
Continuous
 62
     7
370
    25
100
AcDbLine
 10
-33.9206047694
 20
-318.3278400071
 30
0.0
 11
321.0793952306
 21
-318.3278400071
 31
0.0
  0
LINE
  5
AD
330
1F
100
AcDbEntity
  8
0
  6
Continuous
 62
     7
370
    25
100
AcDbLine
 10
-33.9206047694
 20
-378.3278400071
 30
0.0
 11
321.0793952306
 21
-378.3278400071
 31
0.0
  0
LINE
  5
AE
330
1F
100
AcDbEntity
  8
0
  6
Continuous
 62
     1
370
    25
100
AcDbLine
 10
-36.4697763525
 20
-295.4422173536
 30
0.0
 11
323.6285668137
 21
-295.4422173536
 31
0.0
  0
LINE
  5
AF
330
1F
100
AcDbEntity
  8
0
  6
Continuous
 62
     7
370
    25
100
AcDbLine
 10
491.6982718878
 20
-100.9579284037
 30
0.0
 11
521.6982718878
 21
-100.9579284037
 31
0.0
  0
LINE
  5
B0
330
1F
100
AcDbEntity
  8
0
  6
Continuous
 62
     7
370
    25
100
AcDbLine
 10
521.6982718878
 20
334.0420715963
 30
0.0
 11
491.6982718878
 21
334.0420715963
 31
0.0
  0
ARC
  5
B1
330
1F
100
AcDbEntity
  8
0
  6
Continuous
 62
     7
370
    25
100
AcDbCircle
 10
529.6982718878
 20
-71.4579284037
 30
0.0
 40
8.000000000000002
100
AcDbArc
 50
96.3558323105
 51
180.0
  0
ARC
  5
B2
330
1F
100
AcDbEntity
  8
0
  6
Continuous
 62
     7
370
    25
100
AcDbCircle
 10
529.6982718878
 20
304.5420715963
 30
0.0
 40
8.000000000000016
100
AcDbArc
 50
180.0
 51
263.6441676895
  0
LINE
  5
B3
330
1F
100
AcDbEntity
  8
0
  6
Continuous
 62
     7
370
    25
100
AcDbLine
 10
528.8126492343
 20
-63.5070999868
 30
0.0
 11
551.6982718878
 21
-60.9579284037
 31
0.0
  0
LINE
  5
B4
330
1F
100
AcDbEntity
  8
0
  6
Continuous
 62
     7
370
    25
100
AcDbLine
 10
551.6982718878
 20
294.0420715963
 30
0.0
 11
528.8126492343
 21
296.5912431793
 31
0.0
  0
LINE
  5
B5
330
1F
100
AcDbEntity
  8
0
  6
Continuous
 62
     7
370
    25
100
AcDbLine
 10
551.6982718878
 20
-60.9579284037
 30
0.0
 11
611.6982718878
 21
-60.9579284037
 31
0.0
  0
LINE
  5
B6
330
1F
100
AcDbEntity
  8
0
  6
Continuous
 62
     7
370
    25
100
AcDbLine
 10
611.6982718878
 20
294.0420715963
 30
0.0
 11
551.6982718878
 21
294.0420715963
 31
0.0
  0
LINE
  5
B7
330
1F
100
AcDbEntity
  8
0
  6
Continuous
 62
     7
370
    25
100
AcDbLine
 10
521.6982718878
 20
116.5420715963
 30
0.0
 11
521.6982718878
 21
334.0420715963
 31
0.0
  0
LINE
  5
B8
330
1F
100
AcDbEntity
  8
0
  6
Continuous
 62
     7
370
    25
100
AcDbLine
 10
521.6982718878
 20
-100.9579284037
 30
0.0
 11
521.6982718878
 21
116.5420715963
 31
0.0
  0
LINE
  5
B9
330
1F
100
AcDbEntity
  8
0
  6
Continuous
 62
     7
370
    25
100
AcDbLine
 10
491.6982718878
 20
116.5420715963
 30
0.0
 11
491.6982718878
 21
334.0420715963
 31
0.0
  0
LINE
  5
BA
330
1F
100
AcDbEntity
  8
0
  6
Continuous
 62
     7
370
    25
100
AcDbLine
 10
491.6982718878
 20
-100.9579284037
 30
0.0
 11
491.6982718878
 21
116.5420715963
 31
0.0
  0
LINE
  5
BB
330
1F
100
AcDbEntity
  8
0
  6
Continuous
 62
     7
370
    25
100
AcDbLine
 10
551.6982718878
 20
116.5420715963
 30
0.0
 11
551.6982718878
 21
294.0420715963
 31
0.0
  0
LINE
  5
BC
330
1F
100
AcDbEntity
  8
0
  6
Continuous
 62
     7
370
    25
100
AcDbLine
 10
551.6982718878
 20
-60.9579284037
 30
0.0
 11
551.6982718878
 21
116.5420715963
 31
0.0
  0
LINE
  5
BD
330
1F
100
AcDbEntity
  8
0
  6
Continuous
 62
     7
370
    25
100
AcDbLine
 10
611.6982718878
 20
116.5420715963
 30
0.0
 11
611.6982718878
 21
294.0420715963
 31
0.0
  0
LINE
  5
BE
330
1F
100
AcDbEntity
  8
0
  6
Continuous
 62
     7
370
    25
100
AcDbLine
 10
611.6982718878
 20
-60.9579284037
 30
0.0
 11
611.6982718878
 21
116.5420715963
 31
0.0
  0
LINE
  5
BF
330
1F
100
AcDbEntity
  8
0
  6
Continuous
 62
     1
370
    25
100
AcDbLine
 10
528.8126492343
 20
116.5420715963
 30
0.0
 11
528.8126492343
 21
296.5912431793
 31
0.0
  0
LINE
  5
C0
330
1F
100
AcDbEntity
  8
0
  6
Continuous
 62
     1
370
    25
100
AcDbLine
 10
528.8126492343
 20
-63.5070999868
 30
0.0
 11
528.8126492343
 21
116.5420715963
 31
0.0
  0
LINE
  5
C1
330
1F
100
AcDbEntity
  8
0
  6
Continuous
 62
     7
370
    25
100
AcDbLine
 10
662.0794716787
 20
-167.1625442791
 30
0.0
 11
619.6530648075
 21
-142.6703009244
 31
0.0
  0
LINE
  5
C2
330
1F
100
AcDbEntity
  8
0
  6
Continuous
 62
     7
370
    25
100
AcDbLine
 10
442.1674897646
 20
-450.1176470695
 30
0.0
 11
484.5938966358
 21
-474.6098904242
 31
0.0
  0
LINE
  5
C3
330
1F
100
AcDbEntity
  8
0
  6
Continuous
 62
     7
370
    25
100
AcDbLine
 10
724.5042532026
 20
-157.0128331385
 30
0.0
 11
703.291049767
 21
-144.7667114612
 31
0.0
  0
LINE
  5
C4
330
1F
100
AcDbEntity
  8
0
  6
Continuous
 62
     7
370
    25
100
AcDbLine
 10
485.8087254187
 20
-521.4979665968
 30
0.0
 11
507.0219288543
 21
-533.7440882741
 31
0.0
  0
LINE
  5
C5
330
1F
100
AcDbEntity
  8
0
  6
Continuous
 62
     7
370
    25
100
AcDbLine
 10
672.165094117
 20
-170.6873624831
 30
0.0
 11
658.5783636521
 21
-165.1413976366
 31
0.0
  0
LINE
  5
C6
330
1F
100
AcDbEntity
  8
0
  6
Continuous
 62
     7
370
    25
100
AcDbLine
 10
481.0927886092
 20
-472.5887437817
 30
0.0
 11
492.6899441672
 21
-481.5811268789
 31
0.0
  0
LWPOLYLINE
  5
C7
330
1F
100
AcDbEntity
  8
0
  6
Continuous
 62
     7
370
    25
100
AcDbPolyline
 90
      142
 70
   128
 43
0.0
 10
405.3988236255
 20
-368.8501939212
 10
405.5234193121
 20
-362.3218241616
 10
405.896958999
 20
-355.6625607581
 10
406.5187010575
 20
-348.8856250617
 10
407.3874110763
 20
-342.004472051
 10
408.5013643122
 20
-335.0327636184
 10
409.8583491142
 20
-327.9843414455
 10
411.4556713144
 20
-320.8731995221
 10
413.2901595775
 20
-313.7134563624
 10
415.3581716969
 20
-306.5193269737
 10
417.6556018259
 20
-299.3050946338
 10
420.1778886297
 20
-292.0850825334
 10
422.9200243413
 20
-284.8736253381
 10
425.876564704
 20
-277.6850407287
 10
429.0416397807
 20
-270.5336009746
 10
432.4089656078
 20
-263.4335045973
 10
435.9718566715
 20
-256.3988481811
 10
439.7232391814
 20
-249.443598385
 10
443.6556651148
 20
-242.5815642138
 10
447.761327004
 20
-235.8263696011
 10
452.0320734373
 20
-229.1914263605
 10
456.4594252431
 20
-222.6899075577
 10
461.0345923241
 20
-216.3347213564
 10
465.7484911096
 20
-210.1384853906
 10
470.5917625898
 20
-204.1135017133
 10
475.5547908977
 20
-198.2717323718
 10
480.6277223998
 20
-192.6247756584
 10
485.8004852603
 20
-187.1838430829
 10
491.0628094373
 20
-181.9597371135
 10
496.4042470733
 20
-176.9628297288
 10
501.8141932382
 20
-172.203041826
 10
507.2819069847
 20
-167.6898235234
 10
512.7965326733
 20
-163.4321353981
 10
518.3471215252
 20
-159.4384306958
 10
523.9226533599
 20
-155.7166385475
 10
529.5120584751
 20
-152.2741482271
 10
535.1042396244
 20
-149.1177944803
 10
540.6880940496
 20
-146.2538439555
 10
546.2525355247
 20
-143.6879827612
 10
551.7865163662
 20
-141.4253051774
 10
557.2790493675
 20
-139.4703035409
 10
562.7192296126
 20
-137.8268593266
 10
568.0962561272
 20
-136.4982354408
 10
573.3994533229
 20
-135.4870697432
 10
578.6182921926
 20
-134.7953698098
 10
583.7424112148
 20
-134.4245089467
 10
588.7616369254
 20
-134.3752234639
 10
593.6660041164
 20
-134.6476112131
 10
598.4457756207
 20
-135.2411313936
 10
603.0914616445
 20
-136.1546056261
 10
607.5938386082
 20
-137.3862202921
 10
611.943967459
 20
-138.9335301345
 10
616.1332114188
 20
-140.7934631131
 10
620.1532531315
 20
-142.9623265029
 10
623.9961111764
 20
-145.4358142265
 10
627.6541559145
 20
-148.209015403
 10
631.1201246367
 20
-151.2764240981
 10
634.3871359828
 20
-154.6319502558
 10
637.4487036042
 20
-158.2689317896
 10
640.2987490419
 20
-162.1801478092
 10
642.9316137943
 20
-166.3578329572
 10
645.3420705523
 20
-170.7936928266
 10
647.5253335771
 20
-175.4789204281
 10
649.477068202
 20
-180.4042136761
 10
651.1933994387
 20
-185.5597938566
 10
652.6709196702
 20
-190.9354250426
 10
653.906695417
 20
-196.5204344157
 10
654.8982731606
 20
-202.303733457
 10
655.6436842153
 20
-208.2738399615
 10
656.1414486365
 20
-214.4189008353
 10
656.3905781589
 20
-220.7267156288
 10
656.3905781589
 20
-227.1847607598
 10
656.1414486365
 20
-233.7802143774
 10
655.6436842153
 20
-240.4999818188
 10
654.8982731606
 20
-247.330721608
 10
653.906695417
 20
-254.2588719432
 10
652.6709196702
 20
-261.2706776234
 10
651.1933994387
 20
-268.3522173574
 10
649.477068202
 20
-275.4894314035
 10
647.5253335771
 20
-282.6681494838
 10
645.3420705523
 20
-289.8741189183
 10
642.9316137943
 20
-297.0930329215
 10
640.2987490419
 20
-304.3105590079
 10
637.4487036042
 20
-311.5123674476
 10
634.3871359828
 20
-318.6841597165
 10
631.1201246367
 20
-325.8116968849
 10
627.6541559145
 20
-332.8808278876
 10
623.9961111764
 20
-339.8775176192
 10
620.1532531315
 20
-346.7878748
 10
616.1332114188
 20
-353.5981795555
 10
611.943967459
 20
-360.2949106559
 10
607.5938386082
 20
-366.8647723615
 10
603.0914616445
 20
-373.29472082
 10
598.4457756207
 20
-379.571989964
 10
593.6660041164
 20
-385.6841168566
 10
588.7616369254
 20
-391.6189664357
 10
583.7424112147
 20
-397.3647556067
 10
578.6182921926
 20
-402.9100766371
 10
573.3994533229
 20
-408.2439198053
 10
568.0962561272
 20
-413.3556952595
 10
562.7192296126
 20
-418.2352540426
 10
557.2790493675
 20
-422.8729082423
 10
551.7865163662
 20
-427.2594502255
 10
546.2525355247
 20
-431.3861709192
 10
540.6880940496
 20
-435.2448771013
 10
535.1042396244
 20
-438.827907668
 10
529.5120584751
 20
-442.1281488436
 10
523.9226533599
 20
-445.139048305
 10
518.3471215252
 20
-447.8546281897
 10
512.7965326733
 20
-450.2694969655
 10
507.2819069847
 20
-452.3788601338
 10
501.8141932382
 20
-454.1785297493
 10
496.4042470733
 20
-455.6649327346
 10
491.0628094373
 20
-456.8351179741
 10
485.8004852603
 20
-457.6867621734
 10
480.6277223998
 20
-458.2181744718
 10
475.5547908977
 20
-458.4282997992
 10
470.5917625898
 20
-458.3167209715
 10
465.7484911096
 20
-457.8836595178
 10
461.0345923241
 20
-457.1299752418
 10
456.4594252431
 20
-456.0571645137
 10
452.0320734373
 20
-454.6673573
 10
447.761327004
 20
-452.9633129342
 10
443.6556651148
 20
-450.9484146387
 10
439.7232391814
 20
-448.6266628076
 10
435.9718566715
 20
-446.0026670641
 10
432.4089656078
 20
-443.081637109
 10
429.0416397807
 20
-439.8693723768
 10
425.876564704
 20
-436.3722505219
 10
422.9200243413
 20
-432.5972147559
 10
420.1778886297
 20
-428.551760063
 10
417.6556018259
 20
-424.243918319
 10
415.3581716968
 20
-419.6822423448
 10
413.2901595775
 20
-414.875788926
 10
411.4556713144
 20
-409.8341008308
 10
409.8583491142
 20
-404.5671878643
 10
408.5013643122
 20
-399.0855069947
 10
407.3874110763
 20
-393.3999415918
 10
406.5187010575
 20
-387.5217798197
 10
405.896958999
 20
-381.4626922242
 10
405.5234193121
 20
-375.234708563
 10
405.3988236255
 20
-368.8501939212
  0
LWPOLYLINE
  5
C8
330
1F
100
AcDbEntity
  8
0
  6
Continuous
 62
     7
370
    25
100
AcDbPolyline
 90
      133
 70
   128
 43
0.0
 10
420.3187767085
 20
-360.2370883415
 10
420.4440393679
 20
-354.0882328332
 10
420.8195435859
 20
-347.8086812723
 10
421.4444387246
 20
-341.4126588626
 10
422.3173091956
 20
-334.9146546522
 10
423.4361776665
 20
-328.3293887106
 10
424.7985095404
 20
-321.6717787831
 10
426.4012186974
 20
-314.9569064975
 10
428.2406744857
 20
-308.1999831994
 10
430.3127099465
 20
-301.4163154932
 10
432.6126312528
 20
-294.6212705682
 10
435.1352283433
 20
-287.8302413866
 10
437.8747867241
 20
-281.0586118137
 10
440.8251004144
 20
-274.3217217686
 10
443.9794860048
 20
-267.634832474
 10
447.3307977974
 20
-261.0130918848
 10
450.871443993
 20
-254.4715003733
 10
454.5934038892
 20
-248.0248767482
 10
458.4882460497
 20
-241.6878246856
 10
462.5471474044
 20
-235.4746996465
 10
466.7609132362
 20
-229.3995763575
 10
471.1199980102
 20
-223.4762169269
 10
475.6145269973
 20
-217.7180396688
 10
480.2343186438
 20
-212.1380887069
 10
484.9689076358
 20
-206.7490044247
 10
489.8075686063
 20
-201.5629948314
 10
494.739340432
 20
-196.5918079068
 10
499.7530510634
 20
-191.8467049882
 10
504.8373428335
 20
-187.3384352598
 10
509.9806981861
 20
-183.0772114027
 10
515.171465767
 20
-179.0726864593
 10
520.3978868181
 20
-175.3339319667
 10
525.6481218148
 20
-171.8694174064
 10
530.9102772861
 20
-168.686991018
 10
536.1724327574
 20
-165.7938620211
 10
541.4226677541
 20
-163.1965842831
 10
546.6490888052
 20
-160.9010414737
 10
551.8398563861
 20
-158.9124337356
 10
556.9832117386
 20
-157.2352659049
 10
562.0675035087
 20
-155.8733373062
 10
567.0812141402
 20
-154.8297331458
 10
572.0129859659
 20
-154.1068175228
 10
576.8516469364
 20
-153.7062280736
 10
581.5862359284
 20
-153.6288722622
 10
586.2060275749
 20
-153.8749253243
 10
590.700556562
 20
-154.4438298706
 10
595.059641336
 20
-155.3342971493
 10
599.2734071677
 20
-156.5443099657
 10
603.3323085224
 20
-158.0711272516
 10
607.227150683
 20
-159.9112902746
 10
610.9491105792
 20
-162.0606304737
 10
614.4897567748
 20
-164.5142789021
 10
617.8410685673
 20
-167.2666772569
 10
620.9954541577
 20
-170.3115904705
 10
623.9457678481
 20
-173.6421208352
 10
626.6853262289
 20
-177.2507236284
 10
629.2079233194
 20
-181.1292242043
 10
631.5078446257
 20
-185.2688365115
 10
633.5798800864
 20
-189.6601829967
 10
635.4193358748
 20
-194.2933158478
 10
637.0220450318
 20
-199.1577395286
 10
638.3843769056
 20
-204.2424345549
 10
639.5032453766
 20
-209.5358824572
 10
640.3761158476
 20
-215.0260918733
 10
641.0010109863
 20
-220.7006257131
 10
641.3765152043
 20
-226.5466293323
 10
641.5017778637
 20
-232.5508596524
 10
641.3765152043
 20
-238.6997151607
 10
641.0010109863
 20
-244.9792667217
 10
640.3761158476
 20
-251.3752891313
 10
639.5032453766
 20
-257.8732933417
 10
638.3843769056
 20
-264.4585592834
 10
637.0220450318
 20
-271.1161692109
 10
635.4193358748
 20
-277.8310414964
 10
633.5798800864
 20
-284.5879647945
 10
631.5078446257
 20
-291.3716325007
 10
629.2079233194
 20
-298.1666774258
 10
626.6853262289
 20
-304.9577066074
 10
623.9457678481
 20
-311.7293361802
 10
620.9954541577
 20
-318.4662262253
 10
617.8410685673
 20
-325.15311552
 10
614.4897567748
 20
-331.7748561092
 10
610.9491105792
 20
-338.3164476207
 10
607.227150683
 20
-344.7630712457
 10
603.3323085224
 20
-351.1001233084
 10
599.2734071677
 20
-357.3132483474
 10
595.059641336
 20
-363.3883716364
 10
590.700556562
 20
-369.3117310671
 10
586.2060275749
 20
-375.0699083251
 10
581.5862359284
 20
-380.6498592871
 10
576.8516469364
 20
-386.0389435693
 10
572.0129859659
 20
-391.2249531625
 10
567.0812141402
 20
-396.1961400871
 10
562.0675035087
 20
-400.9412430058
 10
556.9832117386
 20
-405.4495127341
 10
551.8398563861
 20
-409.7107365913
 10
546.6490888052
 20
-413.7152615346
 10
541.4226677541
 20
-417.4540160272
 10
536.1724327574
 20
-420.9185305876
 10
530.9102772861
 20
-424.1009569759
 10
525.6481218148
 20
-426.9940859729
 10
520.3978868181
 20
-429.5913637108
 10
515.171465767
 20
-431.8869065202
 10
509.9806981861
 20
-433.8755142584
 10
504.8373428335
 20
-435.5526820891
 10
499.7530510634
 20
-436.9146106878
 10
494.739340432
 20
-437.9582148482
 10
489.8075686063
 20
-438.6811304711
 10
484.9689076358
 20
-439.0817199203
 10
480.2343186438
 20
-439.1590757318
 10
475.6145269973
 20
-438.9130226697
 10
471.1199980102
 20
-438.3441181234
 10
466.7609132362
 20
-437.4536508446
 10
462.5471474044
 20
-436.2436380282
 10
458.4882460497
 20
-434.7168207424
 10
454.5934038892
 20
-432.8766577193
 10
450.871443993
 20
-430.7273175202
 10
447.3307977974
 20
-428.2736690918
 10
443.9794860048
 20
-425.5212707371
 10
440.8251004144
 20
-422.4763575235
 10
437.8747867241
 20
-419.1458271588
 10
435.1352283433
 20
-415.5372243655
 10
432.6126312528
 20
-411.6587237897
 10
430.3127099465
 20
-407.5191114825
 10
428.2406744857
 20
-403.1277649972
 10
426.4012186974
 20
-398.4946321462
 10
424.7985095404
 20
-393.6302084654
 10
423.4361776665
 20
-388.545513439
 10
422.3173091956
 20
-383.2520655368
 10
421.4444387246
 20
-377.7618561207
 10
420.8195435859
 20
-372.0873222809
 10
420.4440393679
 20
-366.2413186617
 10
420.3187767085
 20
-360.2370883415
  0
LWPOLYLINE
  5
C9
330
1F
100
AcDbEntity
  8
0
  6
Continuous
 62
     7
370
    25
100
AcDbPolyline
 90
       73
 70
   128
 43
0.0
 10
662.0794716787
 20
-167.1625442791
 10
662.5796600027
 20
-167.4545698576
 10
666.4225180476
 20
-169.9280575812
 10
670.0805627857
 20
-172.7012587577
 10
673.5465315079
 20
-175.7686674528
 10
676.813542854
 20
-179.1241936105
 10
679.8751104754
 20
-182.7611751443
 10
682.7251559131
 20
-186.6723911639
 10
685.3580206655
 20
-190.8500763119
 10
687.7684774235
 20
-195.2859361813
 10
689.9517404483
 20
-199.9711637828
 10
691.9034750732
 20
-204.8964570308
 10
693.6198063099
 20
-210.0520372113
 10
695.0973265414
 20
-215.4276683973
 10
696.3331022882
 20
-221.0126777704
 10
697.3246800318
 20
-226.7959768117
 10
698.0700910865
 20
-232.7660833161
 10
698.5678555077
 20
-238.9111441899
 10
698.8169850301
 20
-245.2189589835
 10
698.8169850301
 20
-251.6770041145
 10
698.5678555077
 20
-258.272457732
 10
698.0700910865
 20
-264.9922251735
 10
697.3246800318
 20
-271.8229649627
 10
696.3331022882
 20
-278.7511152979
 10
695.0973265414
 20
-285.7629209781
 10
693.6198063099
 20
-292.844460712
 10
691.9034750732
 20
-299.9816747581
 10
689.9517404483
 20
-307.1603928385
 10
687.7684774235
 20
-314.366362273
 10
685.3580206655
 20
-321.5852762762
 10
682.7251559131
 20
-328.8028023626
 10
679.8751104754
 20
-336.0046108022
 10
676.813542854
 20
-343.1764030711
 10
673.5465315079
 20
-350.3039402396
 10
670.0805627857
 20
-357.3730712422
 10
666.4225180476
 20
-364.3697609739
 10
662.5796600027
 20
-371.2801181547
 10
658.55961829
 20
-378.0904229101
 10
654.3703743302
 20
-384.7871540105
 10
650.0202454794
 20
-391.3570157161
 10
645.5178685157
 20
-397.7869641747
 10
640.8721824919
 20
-404.0642333187
 10
636.0924109876
 20
-410.1763602113
 10
631.1880437966
 20
-416.1112097903
 10
626.1688180859
 20
-421.8569989614
 10
621.0446990638
 20
-427.4023199918
 10
615.8258601941
 20
-432.73616316
 10
610.5226629984
 20
-437.8479386142
 10
605.1456364838
 20
-442.7274973973
 10
599.7054562387
 20
-447.365151597
 10
594.2129232374
 20
-451.7516935802
 10
588.6789423959
 20
-455.8784142738
 10
583.1145009208
 20
-459.737120456
 10
577.5306464955
 20
-463.3201510226
 10
571.9384653463
 20
-466.6203921983
 10
566.3490602311
 20
-469.6312916596
 10
560.7735283964
 20
-472.3468715444
 10
555.2229395445
 20
-474.7617403202
 10
549.7083138559
 20
-476.8711034884
 10
544.2406001094
 20
-478.6707731039
 10
538.8306539445
 20
-480.1571760892
 10
533.4892163085
 20
-481.3273613288
 10
528.2268921315
 20
-482.1790055281
 10
523.054129271
 20
-482.7104178264
 10
517.9811977689
 20
-482.9205431539
 10
513.018169461
 20
-482.8089643261
 10
508.1748979808
 20
-482.3759028725
 10
503.4609991953
 20
-481.6222185965
 10
498.8858321143
 20
-480.5494078684
 10
494.4584803085
 20
-479.1596006547
 10
490.1877338752
 20
-477.4555562889
 10
486.082071986
 20
-475.4406579934
 10
484.5938966358
 20
-474.6098904242
  0
LWPOLYLINE
  5
CA
330
1F
100
AcDbEntity
  8
0
  6
Continuous
 62
     7
370
    25
100
AcDbPolyline
 90
      110
 70
   128
 43
0.0
 10
620.4385425049
 20
-143.1237475472
 10
625.3129841674
 20
-141.3646870378
 10
631.3556136638
 20
-139.4478833067
 10
637.338544138
 20
-137.8452364711
 10
643.2520712548
 20
-136.5593460299
 10
649.0866032515
 20
-135.5922977023
 10
654.8326764961
 20
-134.945660044
 10
660.4809708366
 20
-134.6204819038
 10
666.0223247189
 20
-134.6172907218
 10
671.4477500469
 20
-134.9360916741
 10
676.7484467608
 20
-135.5763676643
 10
681.9158171111
 20
-136.5370801626
 10
686.9414796043
 20
-137.8166708897
 10
691.8172825973
 20
-139.4130643447
 10
696.53531752
 20
-141.3236711716
 10
701.0879317024
 20
-143.5453923593
 10
705.4677407876
 20
-146.0746242677
 10
709.6676407093
 20
-148.9072644736
 10
713.6808192146
 20
-152.038718424
 10
717.500766913
 20
-155.4639068893
 10
721.1212878356
 20
-159.1772742012
 10
724.5365094842
 20
-163.1727972645
 10
727.7408923567
 20
-167.4439953259
 10
730.7292389324
 20
-171.9839404868
 10
733.4967021023
 20
-176.7852689394
 10
736.0387930309
 20
-181.8401929114
 10
738.3513884375
 20
-187.1405132977
 10
740.4307372839
 20
-192.6776329592
 10
742.2734668586
 20
-198.4425706675
 10
743.8765882475
 20
-204.4259756727
 10
745.2375011819
 20
-210.6181428699
 10
746.353998256
 20
-217.0090285413
 10
747.2242685075
 20
-223.5882666469
 10
747.8469003548
 20
-230.3451856386
 10
748.2208838868
 20
-237.2688257689
 10
748.3456125009
 20
-244.3479568683
 10
748.2208838868
 20
-251.5710965602
 10
747.8469003548
 20
-258.9265288857
 10
747.2242685075
 20
-266.4023233065
 10
746.353998256
 20
-273.9863540569
 10
745.2375011819
 20
-281.6663198112
 10
743.8765882475
 20
-289.4297636369
 10
742.2734668586
 20
-297.2640931997
 10
740.4307372839
 20
-305.1566011884
 10
738.3513884375
 20
-313.0944859262
 10
736.0387930309
 20
-321.064872135
 10
733.4967021023
 20
-329.0548318192
 10
730.7292389324
 20
-337.051405235
 10
727.7408923567
 20
-345.0416219111
 10
724.5365094842
 20
-353.0125216868
 10
721.1212878356
 20
-360.9511757335
 10
717.500766913
 20
-368.8447075254
 10
713.6808192145
 20
-376.680313725
 10
709.6676407093
 20
-384.4452849504
 10
705.4677407876
 20
-392.1270263898
 10
701.0879317024
 20
-399.7130782306
 10
696.53531752
 20
-407.191135869
 10
691.8172825973
 20
-414.549069868
 10
686.9414796043
 20
-421.7749456319
 10
681.9158171111
 20
-428.8570427638
 10
676.7484467608
 20
-435.7838740761
 10
671.4477500469
 20
-442.5442042232
 10
666.0223247189
 20
-449.1270679248
 10
660.4809708366
 20
-455.5217877521
 10
654.8326764961
 20
-461.7179914459
 10
649.0866032515
 20
-467.7056287412
 10
643.2520712548
 20
-473.4749876686
 10
637.338544138
 20
-479.0167103066
 10
631.3556136638
 20
-484.321807961
 10
625.3129841674
 20
-489.3816757438
 10
619.2204568158
 20
-494.1881065312
 10
613.0879137108
 20
-498.7333042747
 10
606.9253018595
 20
-503.0098966469
 10
600.7426170411
 20
-507.0109469995
 10
594.5498875929
 20
-510.7299656141
 10
588.3571581446
 20
-514.160920229
 10
582.1744733262
 20
-517.2982458231
 10
576.011861475
 20
-520.136853643
 10
569.8793183699
 20
-522.6721394563
 10
563.7867910183
 20
-524.8999910202
 10
557.7441615219
 20
-526.8167947513
 10
551.7612310478
 20
-528.4194415869
 10
545.847703931
 20
-529.7053320281
 10
540.0131719342
 20
-530.6723803557
 10
534.2670986897
 20
-531.319018014
 10
528.6188043492
 20
-531.6441961542
 10
523.0774504668
 20
-531.6473873362
 10
517.6520251388
 20
-531.3285863839
 10
512.351328425
 20
-530.6883103936
 10
507.1839580746
 20
-529.7275978954
 10
502.1582955815
 20
-528.4480071683
 10
497.2824925884
 20
-526.8516137133
 10
492.5644576658
 20
-524.9410068863
 10
488.0118434834
 20
-522.7192856987
 10
483.6320343982
 20
-520.1900537902
 10
479.4321344764
 20
-517.3574135844
 10
475.4189559712
 20
-514.225959634
 10
471.5990082727
 20
-510.8007711687
 10
467.9784873501
 20
-507.0874038567
 10
464.5632657016
 20
-503.0918807935
 10
461.358882829
 20
-498.8206827321
 10
458.3705362533
 20
-494.2807375712
 10
455.6030730835
 20
-489.4794091186
 10
453.0609821548
 20
-484.4244851466
 10
450.7483867482
 20
-479.1241647603
 10
448.6690379019
 20
-473.5870450988
 10
446.8263083272
 20
-467.8221073905
 10
445.2231869383
 20
-461.8387023853
 10
443.8622740039
 20
-455.6465351881
 10
442.952967462
 20
-450.5710936923
  0
LWPOLYLINE
  5
CB
330
1F
100
AcDbEntity
  8
0
  6
Continuous
 62
     7
370
    25
100
AcDbPolyline
 90
       80
 70
   128
 43
0.0
 10
724.5042532026
 20
-157.0128331385
 10
726.6809442232
 20
-158.3207459451
 10
730.8808441449
 20
-161.1533861509
 10
734.8940226501
 20
-164.2848401013
 10
738.7139703486
 20
-167.7100285666
 10
742.3344912712
 20
-171.4233958786
 10
745.7497129198
 20
-175.4189189418
 10
748.9540957923
 20
-179.6901170033
 10
751.942442368
 20
-184.2300621641
 10
754.7099055379
 20
-189.0313906167
 10
757.2519964665
 20
-194.0863145887
 10
759.5645918731
 20
-199.386634975
 10
761.6439407195
 20
-204.9237546365
 10
763.4866702942
 20
-210.6886923449
 10
765.0897916831
 20
-216.67209735
 10
766.4507046175
 20
-222.8642645472
 10
767.5672016916
 20
-229.2551502186
 10
768.4374719431
 20
-235.8343883243
 10
769.0601037904
 20
-242.5913073159
 10
769.4340873224
 20
-249.5149474462
 10
769.5588159365
 20
-256.5940785456
 10
769.4340873224
 20
-263.8172182375
 10
769.0601037904
 20
-271.172650563
 10
768.4374719431
 20
-278.6484449839
 10
767.5672016916
 20
-286.2324757343
 10
766.4507046175
 20
-293.9124414886
 10
765.0897916831
 20
-301.6758853143
 10
763.4866702942
 20
-309.5102148771
 10
761.6439407195
 20
-317.4027228658
 10
759.5645918731
 20
-325.3406076035
 10
757.2519964665
 20
-333.3109938123
 10
754.7099055379
 20
-341.3009534965
 10
751.942442368
 20
-349.2975269123
 10
748.9540957923
 20
-357.2877435884
 10
745.7497129198
 20
-365.2586433641
 10
742.3344912712
 20
-373.1972974109
 10
738.7139703486
 20
-381.0908292028
 10
734.8940226501
 20
-388.9264354023
 10
730.8808441449
 20
-396.6914066277
 10
726.6809442232
 20
-404.3731480672
 10
722.301135138
 20
-411.959199908
 10
717.7485209556
 20
-419.4372575463
 10
713.0304860329
 20
-426.7951915454
 10
708.1546830399
 20
-434.0210673093
 10
703.1290205467
 20
-441.1031644411
 10
697.9616501964
 20
-448.0299957534
 10
692.6609534825
 20
-454.7903259005
 10
687.2355281545
 20
-461.3731896022
 10
681.6941742722
 20
-467.7679094294
 10
676.0458799317
 20
-473.9641131232
 10
670.2998066871
 20
-479.9517504186
 10
664.4652746904
 20
-485.7211093459
 10
658.5517475736
 20
-491.262831984
 10
652.5688170994
 20
-496.5679296383
 10
646.526187603
 20
-501.6277974212
 10
640.4336602514
 20
-506.4342282085
 10
634.3011171464
 20
-510.979425952
 10
628.1385052951
 20
-515.2560183243
 10
621.9558204767
 20
-519.2570686769
 10
615.7630910285
 20
-522.9760872915
 10
609.5703615802
 20
-526.4070419063
 10
603.3876767618
 20
-529.5443675005
 10
597.2250649106
 20
-532.3829753203
 10
591.0925218055
 20
-534.9182611336
 10
584.9999944539
 20
-537.1461126975
 10
578.9573649575
 20
-539.0629164286
 10
572.9744344834
 20
-540.6655632643
 10
567.0609073666
 20
-541.9514537054
 10
561.2263753698
 20
-542.9185020331
 10
555.4803021253
 20
-543.5651396913
 10
549.8320077848
 20
-543.8903178315
 10
544.2906539024
 20
-543.8935090135
 10
538.8652285744
 20
-543.5747080613
 10
533.5645318606
 20
-542.934432071
 10
528.3971615102
 20
-541.9737195727
 10
523.3714990171
 20
-540.6941288457
 10
518.495696024
 20
-539.0977353906
 10
513.7776611014
 20
-537.1871285637
 10
509.225046919
 20
-534.965407376
 10
507.0219288543
 20
-533.7440882741
  0
LWPOLYLINE
  5
CC
330
1F
100
AcDbEntity
  8
0
  6
Continuous
 62
     7
370
    25
100
AcDbPolyline
 90
       41
 70
   128
 43
0.0
 10
492.0194043208
 20
-401.6289796109
 10
492.1446669802
 20
-395.4801241027
 10
492.5201711982
 20
-389.2005725417
 10
493.1450663369
 20
-382.804550132
 10
494.0179368079
 20
-376.3065459216
 10
495.1368052789
 20
-369.72127998
 10
496.4991371527
 20
-363.0636700525
 10
498.1018463097
 20
-356.3487977669
 10
499.9413020981
 20
-349.5918744688
 10
502.0133375588
 20
-342.8082067626
 10
504.3132588651
 20
-336.0131618376
 10
506.8358559556
 20
-329.222132656
 10
509.5754143364
 20
-322.4505030832
 10
512.5257280267
 20
-315.713613038
 10
515.6801136172
 20
-309.0267237434
 10
519.0314254097
 20
-302.4049831542
 10
522.5720716053
 20
-295.8633916427
 10
526.2940315015
 20
-289.4167680176
 10
530.1888736621
 20
-283.079715955
 10
534.2477750168
 20
-276.8665909159
 10
538.4615408485
 20
-270.7914676269
 10
542.8206256225
 20
-264.8681081963
 10
547.3151546096
 20
-259.1099309382
 10
551.9349462561
 20
-253.5299799763
 10
556.6695352481
 20
-248.1408956941
 10
561.5081962186
 20
-242.9548861008
 10
566.4399680443
 20
-237.9836991762
 10
571.4536786758
 20
-233.2385962576
 10
576.5379704458
 20
-228.7303265292
 10
581.6813257984
 20
-224.4691026721
 10
586.8720933793
 20
-220.4645777287
 10
592.0985144304
 20
-216.7258232361
 10
597.3487494271
 20
-213.2613086758
 10
602.6109048984
 20
-210.0788822875
 10
607.8730603697
 20
-207.1857532905
 10
613.1232953664
 20
-204.5884755525
 10
618.3497164175
 20
-202.2929327431
 10
623.5404839984
 20
-200.304325005
 10
628.683839351
 20
-198.6271571743
 10
633.7681311211
 20
-197.2652285756
 10
636.2546110547
 20
-196.7097027873
  0
ARC
  5
CD
330
1F
100
AcDbEntity
  8
0
  6
Continuous
 62
     7
370
    25
100
AcDbCircle
 10
607.7703166089
 20
-402.9876494105
 30
0.0
 40
115.7588859619653
100
AcDbArc
 50
179.3275001564
 51
197.3304347288
  0
LINE
  5
CE
330
1F
100
AcDbEntity
  8
0
  6
Continuous
 62
     7
370
    25
100
AcDbLine
 10
672.165094117
 20
-170.6873624831
 30
0.0
 11
672.3865307295
 21
-170.7782568969
 31
0.0
  0
LWPOLYLINE
  5
CF
330
1F
100
AcDbEntity
  8
0
  6
Continuous
 62
     7
370
    25
100
AcDbPolyline
 90
        3
 70
   128
 43
0.0
 10
492.9708080297
 20
-481.7976055865
 10
492.8004691058
 20
-481.6666253368
 10
492.6899441672
 20
-481.5811268789
  0
LWPOLYLINE
  5
D0
330
1F
100
AcDbEntity
  8
0
  6
Continuous
 62
     7
370
    25
100
AcDbPolyline
 90
       34
 70
   128
 43
0.0
 10
492.2041791312
 20
-408.9015010107
 10
492.5175600235
 20
-403.7176143629
 10
493.1393141652
 20
-396.9864458248
 10
494.0080162745
 20
-390.1513456727
 10
495.1219169009
 20
-383.2260788888
 10
496.4787727967
 20
-376.2245920387
 10
498.0758514348
 20
-369.1609851852
 10
499.9099365113
 20
-362.0494834924
 10
501.9773344229
 20
-354.9044085784
 10
504.2738817054
 20
-347.7401496731
 10
506.7949534182
 20
-340.5711346406
 10
509.5354724584
 20
-333.4118009229
 10
512.4899197854
 20
-326.2765664655
 10
515.6523455354
 20
-319.179800681
 10
519.0163810038
 20
-312.1357955112
 10
522.5752514709
 20
-305.158736645
 10
526.3217898451
 20
-298.2626749506
 10
530.2484510969
 20
-291.4614981784
 10
534.347327453
 20
-284.7689029933
 10
538.6101643219
 20
-278.1983673914
 10
543.0283769174
 20
-271.7631235569
 10
547.5930675475
 20
-265.4761312144
 10
552.2950435326
 20
-259.35005153
 10
557.1248357188
 20
-253.3972216128
 10
562.0727175476
 20
-247.62962967
 10
567.1287246432
 20
-242.0588908642
 10
572.2826748804
 20
-236.6962239221
 10
577.5241888892
 20
-231.5524285411
 10
582.842710958
 20
-226.6378636407
 10
588.2275302911
 20
-221.9624265004
 10
593.667802579
 20
-217.5355328285
 10
599.1525718374
 20
-213.3660977996
 10
604.6707924708
 20
-209.4625181011
 10
608.983180124
 20
-206.6124195908
  0
LWPOLYLINE
  5
D1
330
1F
100
AcDbEntity
  8
0
  6
Continuous
 62
     1
370
    25
100
AcDbPolyline
 90
       90
 70
   128
 43
0.0
 10
652.3153699446
 20
-161.5258483284
 10
654.2591481521
 20
-161.5093159904
 10
659.3481570883
 20
-161.6870696357
 10
664.3155140442
 20
-162.1866938604
 10
669.1518933261
 20
-163.007250672
 10
673.8482151372
 20
-164.1471995611
 10
678.3956626241
 20
-165.6044003925
 10
682.7856984293
 20
-167.3761174242
 10
687.0100807192
 20
-169.4590244423
 10
691.0608786574
 20
-171.8492110067
 10
694.9304872942
 20
-174.5421897918
 10
698.6116418436
 20
-177.5329050114
 10
702.0974313226
 20
-180.81574191
 10
705.3813115257
 20
-184.3845373045
 10
708.4571173108
 20
-188.2325911544
 10
711.3190741742
 20
-192.3526791406
 10
713.9618090907
 20
-196.7370662285
 10
716.3803606016
 20
-201.3775211894
 10
718.5701881294
 20
-206.2653320541
 10
720.5271805015
 20
-211.3913224682
 10
722.2476636692
 20
-216.7458689205
 10
723.7284076053
 20
-222.3189188094
 10
724.9666323676
 20
-228.1000093161
 10
725.9600133186
 20
-234.0782870472
 10
726.7066854894
 20
-240.242528411
 10
727.2052470808
 20
-246.5811606883
 10
727.4547620958
 20
-253.0822837594
 10
727.4547620958
 20
-259.733692445
 10
727.2052470808
 20
-266.5228994203
 10
726.7066854894
 20
-273.4371586586
 10
725.9600133186
 20
-280.4634893606
 10
724.9666323676
 20
-287.5887003246
 10
723.7284076053
 20
-294.7994147115
 10
722.2476636692
 20
-302.0820951585
 10
720.5271805015
 20
-309.4230691939
 10
718.5701881294
 20
-316.8085549062
 10
716.3803606016
 20
-324.2246868175
 10
713.9618090907
 20
-331.6575419151
 10
711.3190741742
 20
-339.0931657902
 10
708.4571173108
 20
-346.5175988358
 10
705.3813115257
 20
-353.9169024548
 10
702.0974313226
 20
-361.2771852277
 10
698.6116418436
 20
-368.5846289926
 10
694.9304872942
 20
-375.8255147875
 10
691.0608786574
 20
-382.9862486058
 10
687.0100807192
 20
-390.053386918
 10
682.7856984293
 20
-397.0136619103
 10
678.3956626241
 20
-403.8540063938
 10
673.8482151372
 20
-410.5615783364
 10
669.1518933261
 20
-417.1237849725
 10
664.3155140442
 20
-423.5283064451
 10
659.3481570883
 20
-429.763118934
 10
654.2591481521
 20
-435.8165172305
 10
649.058041318
 20
-441.6771367117
 10
643.7546011208
 20
-447.3339746768
 10
638.3587842153
 20
-452.7764110037
 10
632.8807206838
 20
-457.9942280868
 10
627.3306950183
 20
-462.9776300198
 10
621.7191268121
 20
-467.7172609862
 10
616.0565511981
 20
-472.2042228241
 10
610.3535990704
 20
-476.4300917316
 10
604.6209771257
 20
-480.3869340812
 10
598.8694477626
 20
-484.067321315
 10
593.1098088767
 20
-487.4643438904
 10
587.3528735882
 20
-490.5716242525
 10
581.6094499414
 20
-493.3833288072
 10
575.8903206142
 20
-495.8941788728
 10
570.2062226742
 20
-498.0994605907
 10
564.5678274216
 20
-499.995033775
 10
558.9857203542
 20
-501.5773396851
 10
553.4703812947
 20
-502.8434077069
 10
548.032164716
 20
-503.79086093
 10
542.6812803014
 20
-504.41792061
 10
537.4277737774
 20
-504.7234095079
 10
532.2815080535
 20
-504.7067541001
 10
527.2521447059
 20
-504.3679856555
 10
522.3491258388
 20
-503.7077401764
 10
517.5816563577
 20
-502.7272572048
 10
512.9586866886
 20
-501.4283774949
 10
508.4888959738
 20
-499.8135395577
 10
504.1806757785
 20
-497.8857750827
 10
500.0421143358
 20
-495.6487032462
 10
496.0809813625
 20
-493.1065239169
 10
492.3047134719
 20
-490.2640097709
 10
488.7204002123
 20
-487.1264973314
 10
485.3347707573
 20
-483.6998769502
 10
482.1541812725
 20
-479.9905817491
 10
479.1846029823
 20
-476.0055755422
 10
476.4316109598
 20
-471.7523397623
 10
474.8297949017
 20
-468.9731944736
  0
LWPOLYLINE
  5
D2
330
1F
100
AcDbEntity
  8
0
  6
Continuous
 62
     1
370
    25
100
AcDbPolyline
 90
       76
 70
   128
 43
0.0
 10
672.3865307295
 20
-170.7782568969
 10
674.4294867465
 20
-171.6655879344
 10
678.5425141778
 20
-173.7355398672
 10
682.4812744146
 20
-176.1118335729
 10
686.2380571488
 20
-178.789817345
 10
689.8055083018
 20
-181.7642489044
 10
693.1766444204
 20
-185.0293056617
 10
696.3448663473
 20
-188.5785961151
 10
699.3039721395
 20
-192.4051723617
 10
702.0481692082
 20
-196.5015436988
 10
704.5720856589
 20
-200.8596912873
 10
706.8707808067
 20
-205.4710838484
 10
708.9397548477
 20
-210.3266943649
 10
710.7749576682
 20
-215.4170177509
 10
712.3727967725
 20
-220.7320894596
 10
713.7301443155
 20
-226.2615049883
 10
714.8443432255
 20
-231.9944402466
 10
715.7132124061
 20
-237.9196727444
 10
716.3350510048
 20
-244.0256035609
 10
716.7086417435
 20
-250.3002800498
 10
716.8332533007
 20
-256.7314192372
 10
716.7086417435
 20
-263.3064318661
 10
716.3350510048
 20
-270.0124470406
 10
715.7132124061
 20
-276.836337421
 10
714.8443432255
 20
-283.7647449215
 10
713.7301443155
 20
-290.784106859
 10
712.3727967725
 20
-297.8806825028
 10
710.7749576682
 20
-305.040579973
 10
708.9397548477
 20
-312.249783434
 10
706.8707808067
 20
-319.4941805315
 10
704.5720856589
 20
-326.7595900179
 10
702.0481692082
 20
-334.031789513
 10
699.3039721395
 20
-341.2965433448
 10
696.3448663473
 20
-348.5396304165
 10
693.1766444204
 20
-355.7468720451
 10
689.8055083018
 20
-362.9041597165
 10
686.2380571488
 20
-369.9974827041
 10
682.4812744146
 20
-377.012955495
 10
678.5425141778
 20
-383.9368449718
 10
674.4294867465
 20
-390.7555972957
 10
670.1502435651
 20
-397.4558644388
 10
665.7131614531
 20
-404.0245303135
 10
661.126926207
 20
-410.4487364479
 10
656.4005155978
 20
-416.7159071568
 10
651.543181796
 20
-422.8137741593
 10
646.5644332609
 20
-428.7304005943
 10
641.4740161264
 20
-434.4542043877
 10
636.281895123
 20
-439.9739809249
 10
630.9982340716
 20
-445.278924984
 10
625.6333759867
 20
-450.358651888
 10
620.1978228299
 20
-455.2032178328
 10
614.7022149519
 20
-459.8031393532
 10
609.1573102631
 20
-464.1494118867
 10
603.5739631748
 20
-468.2335274008
 10
597.9631033511
 20
-472.0474910475
 10
592.3357143137
 20
-475.5838368139
 10
586.7028119408
 20
-478.8356421372
 10
581.0754229034
 20
-481.7965414556
 10
575.4645630798
 20
-484.4607386697
 10
569.8812159915
 20
-486.8230184884
 10
564.3363113026
 20
-488.878756638
 10
558.8407034246
 20
-490.6239289145
 10
553.4051502678
 20
-492.0551190612
 10
548.0402921829
 20
-493.1695254563
 10
542.7566311315
 20
-493.9649665968
 10
537.5645101282
 20
-494.4398853694
 10
532.4740929936
 20
-494.5933520982
 10
527.4953444585
 20
-494.425066365
 10
522.6380106568
 20
-493.935357597
 10
517.9116000475
 20
-493.1251844221
 10
513.3253648015
 20
-491.9961327922
 10
508.8882826894
 20
-490.5504128791
 10
504.609039508
 20
-488.7908547473
 10
500.4960120768
 20
-486.7209028145
 10
496.55725184
 20
-484.3446091089
 10
492.9708080297
 20
-481.7976055865
  0
ENDSEC
  0
SECTION
  2
OBJECTS
  0
DICTIONARY
  5
C
330
0
100
AcDbDictionary
281
     1
  3
ACAD_GROUP
350
D
  3
ACAD_LAYOUT
350
1A
  3
ACAD_MLINESTYLE
350
17
  3
ACAD_PLOTSETTINGS
350
19
  3
ACAD_PLOTSTYLENAME
350
E
  3
ACAD_SCALELIST
350
47
  3
DWGPROPS
350
D3
  0
DICTIONARY
  5
D
102
{ACAD_REACTORS
330
C
102
}
330
C
100
AcDbDictionary
281
     1
  0
DICTIONARY
  5
1A
102
{ACAD_REACTORS
330
C
102
}
330
C
100
AcDbDictionary
281
     1
  3
Layout1
350
1E
  3
Layout2
350
26
  3
Model
350
22
  0
DICTIONARY
  5
17
102
{ACAD_REACTORS
330
C
102
}
330
C
100
AcDbDictionary
281
     1
  3
Standard
350
18
  0
DICTIONARY
  5
19
102
{ACAD_REACTORS
330
C
102
}
330
C
100
AcDbDictionary
281
     1
  0
ACDBDICTIONARYWDFLT
  5
E
102
{ACAD_REACTORS
330
C
102
}
330
C
100
AcDbDictionary
281
     1
  3
Normal
350
F
100
AcDbDictionaryWithDefault
340
F
  0
DICTIONARY
  5
47
102
{ACAD_REACTORS
330
C
102
}
330
C
100
AcDbDictionary
281
     1
  3
A0
350
48
  3
A1
350
49
  3
A2
350
4A
  3
A3
350
4B
  3
A4
350
4C
  3
A5
350
4D
  3
A6
350
4E
  3
A7
350
4F
  3
A8
350
50
  3
A9
350
51
  3
B0
350
52
  3
B1
350
53
  3
B2
350
54
  3
B3
350
55
  3
B4
350
56
  3
B5
350
57
  3
B6
350
58
  3
B7
350
59
  3
B8
350
5A
  3
B9
350
5B
  3
C0
350
5C
  3
C1
350
5D
  3
C2
350
5E
  3
C3
350
5F
  3
C4
350
60
  3
C5
350
61
  3
C6
350
62
  3
C7
350
63
  3
C8
350
64
  3
C9
350
65
  3
D0
350
66
  3
D1
350
67
  3
D2
350
68
  0
XRECORD
  5
D3
102
{ACAD_REACTORS
330
C
102
}
330
C
100
AcDbXrecord
280
     1
  1
DWGPROPS COOKIE
  2

  3

  4

  6

  7

  8
b.kav
  9

300
=
301
=
302
=
303
=
304
=
305
=
306
=
307
=
308
=
309
=
 40
0.0
 41
2459898.280667523
 42
2459898.280667708
  1

 90
        0
  0
LAYOUT
  5
1E
102
{ACAD_REACTORS
330
1A
102
}
330
1A
100
AcDbPlotSettings
  1

  2
none_device
  4

  6

 40
0.0
 41
0.0
 42
0.0
 43
0.0
 44
0.0
 45
0.0
 46
0.0
 47
0.0
 48
0.0
 49
0.0
140
0.0
141
0.0
142
1.0
143
1.0
 70
   688
 72
     1
 73
     0
 74
     5
  7

 75
    16
147
1.0
148
0.0
149
0.0
100
AcDbLayout
  1
Layout1
 70
     1
 71
     1
 10
0.0
 20
0.0
 11
420.0
 21
297.0
 12
0.0
 22
0.0
 32
0.0
 14
1.0000000000E+20
 24
1.0000000000E+20
 34
1.0000000000E+20
 15
-1.0000000000E+20
 25
-1.0000000000E+20
 35
-1.0000000000E+20
146
0.0
 13
0.0
 23
0.0
 33
0.0
 16
1.0
 26
0.0
 36
0.0
 17
0.0
 27
1.0
 37
0.0
 76
     0
330
1B
  0
LAYOUT
  5
26
102
{ACAD_REACTORS
330
1A
102
}
330
1A
100
AcDbPlotSettings
  1

  2
none_device
  4

  6

 40
0.0
 41
0.0
 42
0.0
 43
0.0
 44
0.0
 45
0.0
 46
0.0
 47
0.0
 48
0.0
 49
0.0
140
0.0
141
0.0
142
1.0
143
1.0
 70
   688
 72
     1
 73
     0
 74
     5
  7

 75
    16
147
1.0
148
0.0
149
0.0
100
AcDbLayout
  1
Layout2
 70
     1
 71
     2
 10
0.0
 20
0.0
 11
0.0
 21
0.0
 12
0.0
 22
0.0
 32
0.0
 14
0.0
 24
0.0
 34
0.0
 15
0.0
 25
0.0
 35
0.0
146
0.0
 13
0.0
 23
0.0
 33
0.0
 16
1.0
 26
0.0
 36
0.0
 17
0.0
 27
1.0
 37
0.0
 76
     0
330
23
  0
LAYOUT
  5
22
102
{ACAD_REACTORS
330
1A
102
}
330
1A
100
AcDbPlotSettings
  1

  2
none_device
  4
Letter_(8.50_x_11.00_Inches)
  6

 40
6.35
 41
6.35
 42
6.35000508
 43
6.35000508
 44
215.9
 45
279.4
 46
0.0
 47
0.0
 48
0.0
 49
0.0
140
0.0
141
0.0
142
1.0
143
1.0
 70
  1712
 72
     1
 73
     0
 74
     0
  7

 75
     0
147
1.0
148
0.0
149
0.0
100
AcDbLayout
  1
Model
 70
     1
 71
     0
 10
0.0
 20
0.0
 11
279.4
 21
215.9
 12
0.0
 22
0.0
 32
0.0
 14
0.0
 24
0.0
 34
0.0
 15
279.4
 25
215.9
 35
0.0
146
0.0
 13
0.0
 23
0.0
 33
0.0
 16
1.0
 26
0.0
 36
0.0
 17
0.0
 27
1.0
 37
0.0
 76
     0
330
1F
331
29
  0
MLINESTYLE
  5
18
102
{ACAD_REACTORS
330
17
102
}
330
17
100
AcDbMlineStyle
  2
Standard
 70
     0
  3

 62
   256
 51
90.0
 52
90.0
 71
     2
 49
0.5
 62
   256
  6
BYLAYER
 49
-0.5
 62
   256
  6
BYLAYER
  0
ACDBPLACEHOLDER
  5
F
102
{ACAD_REACTORS
330
E
102
}
330
E
  0
SCALE
  5
48
102
{ACAD_REACTORS
330
47
102
}
330
47
100
AcDbScale
 70
     0
300
1:1
140
1.0
141
1.0
290
     1
  0
SCALE
  5
49
102
{ACAD_REACTORS
330
47
102
}
330
47
100
AcDbScale
 70
     0
300
1:2
140
1.0
141
2.0
290
     0
  0
SCALE
  5
4A
102
{ACAD_REACTORS
330
47
102
}
330
47
100
AcDbScale
 70
     0
300
1:4
140
1.0
141
4.0
290
     0
  0
SCALE
  5
4B
102
{ACAD_REACTORS
330
47
102
}
330
47
100
AcDbScale
 70
     0
300
1:5
140
1.0
141
5.0
290
     0
  0
SCALE
  5
4C
102
{ACAD_REACTORS
330
47
102
}
330
47
100
AcDbScale
 70
     0
300
1:8
140
1.0
141
8.0
290
     0
  0
SCALE
  5
4D
102
{ACAD_REACTORS
330
47
102
}
330
47
100
AcDbScale
 70
     0
300
1:10
140
1.0
141
10.0
290
     0
  0
SCALE
  5
4E
102
{ACAD_REACTORS
330
47
102
}
330
47
100
AcDbScale
 70
     0
300
1:16
140
1.0
141
16.0
290
     0
  0
SCALE
  5
4F
102
{ACAD_REACTORS
330
47
102
}
330
47
100
AcDbScale
 70
     0
300
1:20
140
1.0
141
20.0
290
     0
  0
SCALE
  5
50
102
{ACAD_REACTORS
330
47
102
}
330
47
100
AcDbScale
 70
     0
300
1:30
140
1.0
141
30.0
290
     0
  0
SCALE
  5
51
102
{ACAD_REACTORS
330
47
102
}
330
47
100
AcDbScale
 70
     0
300
1:40
140
1.0
141
40.0
290
     0
  0
SCALE
  5
52
102
{ACAD_REACTORS
330
47
102
}
330
47
100
AcDbScale
 70
     0
300
1:50
140
1.0
141
50.0
290
     0
  0
SCALE
  5
53
102
{ACAD_REACTORS
330
47
102
}
330
47
100
AcDbScale
 70
     0
300
1:100
140
1.0
141
100.0
290
     0
  0
SCALE
  5
54
102
{ACAD_REACTORS
330
47
102
}
330
47
100
AcDbScale
 70
     0
300
2:1
140
2.0
141
1.0
290
     0
  0
SCALE
  5
55
102
{ACAD_REACTORS
330
47
102
}
330
47
100
AcDbScale
 70
     0
300
4:1
140
4.0
141
1.0
290
     0
  0
SCALE
  5
56
102
{ACAD_REACTORS
330
47
102
}
330
47
100
AcDbScale
 70
     0
300
8:1
140
8.0
141
1.0
290
     0
  0
SCALE
  5
57
102
{ACAD_REACTORS
330
47
102
}
330
47
100
AcDbScale
 70
     0
300
10:1
140
10.0
141
1.0
290
     0
  0
SCALE
  5
58
102
{ACAD_REACTORS
330
47
102
}
330
47
100
AcDbScale
 70
     0
300
100:1
140
100.0
141
1.0
290
     0
  0
SCALE
  5
59
102
{ACAD_REACTORS
330
47
102
}
330
47
100
AcDbScale
 70
     0
300
1/128" = 1'-0"
140
0.0078125
141
12.0
290
     0
  0
SCALE
  5
5A
102
{ACAD_REACTORS
330
47
102
}
330
47
100
AcDbScale
 70
     0
300
1/64" = 1'-0"
140
0.015625
141
12.0
290
     0
  0
SCALE
  5
5B
102
{ACAD_REACTORS
330
47
102
}
330
47
100
AcDbScale
 70
     0
300
1/32" = 1'-0"
140
0.03125
141
12.0
290
     0
  0
SCALE
  5
5C
102
{ACAD_REACTORS
330
47
102
}
330
47
100
AcDbScale
 70
     0
300
1/16" = 1'-0"
140
0.0625
141
12.0
290
     0
  0
SCALE
  5
5D
102
{ACAD_REACTORS
330
47
102
}
330
47
100
AcDbScale
 70
     0
300
3/32" = 1'-0"
140
0.09375
141
12.0
290
     0
  0
SCALE
  5
5E
102
{ACAD_REACTORS
330
47
102
}
330
47
100
AcDbScale
 70
     0
300
1/8" = 1'-0"
140
0.125
141
12.0
290
     0
  0
SCALE
  5
5F
102
{ACAD_REACTORS
330
47
102
}
330
47
100
AcDbScale
 70
     0
300
3/16" = 1'-0"
140
0.1875
141
12.0
290
     0
  0
SCALE
  5
60
102
{ACAD_REACTORS
330
47
102
}
330
47
100
AcDbScale
 70
     0
300
1/4" = 1'-0"
140
0.25
141
12.0
290
     0
  0
SCALE
  5
61
102
{ACAD_REACTORS
330
47
102
}
330
47
100
AcDbScale
 70
     0
300
3/8" = 1'-0"
140
0.375
141
12.0
290
     0
  0
SCALE
  5
62
102
{ACAD_REACTORS
330
47
102
}
330
47
100
AcDbScale
 70
     0
300
1/2" = 1'-0"
140
0.5
141
12.0
290
     0
  0
SCALE
  5
63
102
{ACAD_REACTORS
330
47
102
}
330
47
100
AcDbScale
 70
     0
300
3/4" = 1'-0"
140
0.75
141
12.0
290
     0
  0
SCALE
  5
64
102
{ACAD_REACTORS
330
47
102
}
330
47
100
AcDbScale
 70
     0
300
1" = 1'-0"
140
1.0
141
12.0
290
     0
  0
SCALE
  5
65
102
{ACAD_REACTORS
330
47
102
}
330
47
100
AcDbScale
 70
     0
300
1-1/2" = 1'-0"
140
1.5
141
12.0
290
     0
  0
SCALE
  5
66
102
{ACAD_REACTORS
330
47
102
}
330
47
100
AcDbScale
 70
     0
300
3" = 1'-0"
140
3.0
141
12.0
290
     0
  0
SCALE
  5
67
102
{ACAD_REACTORS
330
47
102
}
330
47
100
AcDbScale
 70
     0
300
6" = 1'-0"
140
6.0
141
12.0
290
     0
  0
SCALE
  5
68
102
{ACAD_REACTORS
330
47
102
}
330
47
100
AcDbScale
 70
     0
300
1'-0" = 1'-0"
140
12.0
141
12.0
290
     0
  0
ENDSEC
  0
EOF
